当前位置: 找歌谱网 TXT吉他谱大全 linkin park 歌谱专辑 Crawling

歌谱:Crawling(TXT吉他谱)

演唱:linkin park 作词:未知 作词:未知 来源:网络转载 人气: --
-------------------------------------------------------------------------------
歌曲名:Crawling 
歌手/乐队:Linkin Park
编配者(转载来源):网络
-------------------------------------------------------------------------------

(Riff 1)       e---7-4-2-0---0-      (Riff 2)   e---4---2-4-
               b-2---------4---                 b-2---2-----
               g---------------                 g-----------

Chords     G#m      A   (or)     E      Bm
        e   4       5     0      0       7
        b   4       5     2      0       7
        g   4       6     2      1       8
        D   6       7     2      2       9
        A   6       7     0      2       9
        E   4       5     0      0       7

 
INTRO
      e---7-4-2-0---0----7-4-2-0---0----7-4-2-0---0----7-4-2-0---0-
      b-2---------4----2---------4----2---------4----2---------4---
      g------------------------------------------------------------
(should really be
 bass)E-------------------------------4-5-12-7------12-9-7--0------


CHORUS
         G#m             A           E                   Bm
      E---4--------------5-----------0-------------------7--------
         crawling in my skin, these wounds they will not heal

         G#m            A            E              Bm
      E---4-------------5------------0--------------7----
         fear is how I fall,      confusing what is real

BREAK  
      e---7-4-2-0---0----7-4-2-0---0-
      b-2---------4----2---------4---
      g------------------------------

      E---4---5----------0---7-------
       ho - oh

VERSE 1
      E--------4------------------------5------------------------
       there’s something inside me that pulls beneath the surface

      E-0-------------7-----------
          consuming,    confusing
  
      E-4----------------------------5---------------------------
         this lack of self-control I fear is never-ending

      E-0-------------7--------------------------
          controlling,  I can’t seem

BRIDGE 
      e---4-------2--4-----4-2-4--4----4-2----------4---------2--4---------
      b--2--2------------2--2---2----2-----------2----2--------------------
      g--------------------------------------------------------------------

      E-4-5---------12------7--------12---------9---------7-------0--------
          to find myself again, my walls are closing in(without a sense of

      e-------------------4---------------2--------4----------------4----2-4
      b------------2---------------2-----------------------2-----------2----
      g---------------------------------------------------------------------

      E---------------------------------------------------------------------
       confidence, I’m convinced that there’s just too much pressure to take)

      e-------4-----------2--4--------4------2--4---------4-----2----4-----
      b---2---------2--------------2-----2-------------2------2------------
      g--------------------------------------------------------------------

      E-4-5--------12------7------12-----9-----7-----0---------------------
        I’ve felt this way before, so insecure

CHORUS (as before)

VERSE 2 (same progression as before)

         disfort endlessly has pulled itself upon me
         distracting, reacting
         against my will I stand beside my own reflection
         it’s haunting, how I can’t seem

BRIDGE (as before but with a longer "insecure" and an extra riff 2 at the end)

CHORUS

CHORUS 2
           G#m            A          E                    Bm
      E-4-5-----9---7---4-5----------0---------------------7-----------------
          crawling in my skin, these wounds they will not heal
      
      e-----------------------------------------------------------------------
      b---------------------------------------------------------2-------------
      g-----------------------------------------------------------------------
         G#m            A         E         Bm
      E---4-------------5---------0---------7---------------------------------
         fear is how I fall, confusing, confusing what is real

      e----------7-----------4----------2------0-------0---------------7-----
      b--------------------------------------------4--------------2----------
      g----------------------------------------------------------------------
        G#m                                A                         E
      E-4----------------------------------5-------------------------0-------
        (there’s something inside me that pulls beneath the surface,     

      e---4-------2----0--------------0--------------------------------------
      b--------------------------4-----------2-------------------------------
      g----------------------------------------------------------------------
                      Bm
      E----------------7-----------------------------------------------------
          consuming)         confusing what is real

      e---------7---------4---------2--------0---------0---------------------
      b-------------------------------------------4------------2-------------
      g----------------------------------------------------------------------
       G#m                             A                    E
      E-4-5------9----7-------------4--5--------------------0----------------
         (this lack of self-control I fear is never-ending

      e-7------4------2----------0-----------0-----------------------------
      b-------------------------------4------------------------------------
      g---------------------------------------------------------------------
                        Bm
      E------------------7-(hold)------------------------------------------
           controlling)      confusing what is re------al
关于《Crawling》的评论 (0)
此歌谱暂无评论,欢迎发表您的见解。
发表评论 若验证码看不清,点击验证码图片可以切换。
昵称: 验证码:
  
提示:请勿发表违法国家法律、伤害他人的评论信息。
Copyright © 2012 www.zhaogepu.com All Rights Reserved 找歌谱网 信息产业部备案号:闽ICP备09026995号
本站的乐谱和资料均为乐友提供或推荐收集整理而来,仅供学习和研究使用,版权归原作者或出版社所有。
如有侵犯您的版权,请联系我们,我们立即改正或删除。